ISO-10303-21;
HEADER;
FILE_DESCRIPTION (( 'STEP AP214' ),
    '1' );
FILE_NAME ('GCC-411313.STEP',
    '2020-02-15T10:10:30',
    ( 'China' ),
    ( 'Microsoft' ),
    'SwSTEP 2.0',
    'SolidWorks 2018',
    '' );
FILE_SCHEMA (( 'AUTOMOTIVE_DESIGN' ));
ENDSEC;

DATA;
#1 = DIRECTION ( 'NONE',  ( 1.000000000000000000, 0.0000000000000000000, 0.0000000000000000000 ) ) ;
#2 = MANIFOLD_SOLID_BREP ( 'ÇÐ³ý-À­Éì1', #7 ) ;
#3 = SURFACE_STYLE_FILL_AREA ( #48 ) ;
#4 = PRODUCT_RELATED_PRODUCT_CATEGORY ( 'part', '', ( #52 ) ) ;
#5 = EDGE_LOOP ( 'NONE', ( #45, #41, #101, #6 ) ) ;
#6 = ORIENTED_EDGE ( 'NONE', *, *, #128, .T. ) ;
#7 = CLOSED_SHELL ( 'NONE', ( #108, #56, #35, #80 ) ) ;
#8 = LINE ( 'NONE', #138, #102 ) ;
#9 = EDGE_CURVE ( 'NONE', #123, #30, #110, .T. ) ;
#10 =( LENGTH_UNIT ( ) NAMED_UNIT ( * ) SI_UNIT ( .MILLI., .METRE. ) );
#11 = CARTESIAN_POINT ( 'NONE',  ( -50.00000000000000000, 50.00000000000000000, 6.000000000000000000 ) ) ;
#12 = CARTESIAN_POINT ( 'NONE',  ( 0.0000000000000000000, 0.0000000000000000000, 0.0000000000000000000 ) ) ;
#13 = CARTESIAN_POINT ( 'NONE',  ( 0.0000000000000000000, 0.0000000000000000000, 0.0000000000000000000 ) ) ;
#14 = AXIS2_PLACEMENT_3D ( 'NONE', #87, #22, #26 ) ;
#15 = EDGE_LOOP ( 'NONE', ( #37, #65, #119, #106 ) ) ;
#16 = VERTEX_POINT ( 'NONE', #40 ) ;
#17 = SHAPE_DEFINITION_REPRESENTATION ( #111, #55 ) ;
#18 = PLANE ( 'NONE',  #134 ) ;
#19 = SURFACE_SIDE_STYLE ('',( #94 ) ) ;
#20 = UNCERTAINTY_MEASURE_WITH_UNIT (LENGTH_MEASURE( 1.000000000000000082E-05 ), #10, 'distance_accuracy_value', 'NONE');
#21 = EDGE_CURVE ( 'NONE', #123, #73, #67, .T. ) ;
#22 = DIRECTION ( 'NONE',  ( -0.0000000000000000000, -0.0000000000000000000, -1.000000000000000000 ) ) ;
#23 =( NAMED_UNIT ( * ) SI_UNIT ( $, .STERADIAN. ) SOLID_ANGLE_UNIT ( ) );
#24 = VECTOR ( 'NONE', #137, 1000.000000000000000 ) ;
#25 = CARTESIAN_POINT ( 'NONE',  ( -50.00000000000000000, 0.0000000000000000000, 4.253961525412961464 ) ) ;
#26 = DIRECTION ( 'NONE',  ( -1.000000000000000000, 0.0000000000000000000, 0.0000000000000000000 ) ) ;
#27 = AXIS2_PLACEMENT_3D ( 'NONE', #12, #79, #131 ) ;
#28 = DIRECTION ( 'NONE',  ( 0.0000000000000000000, 0.0000000000000000000, 1.000000000000000000 ) ) ;
#29 =( NAMED_UNIT ( * ) SI_UNIT ( $, .STERADIAN. ) SOLID_ANGLE_UNIT ( ) );
#30 = VERTEX_POINT ( 'NONE', #125 ) ;
#31 = CIRCLE ( 'NONE', #89, 50.00000000000000000 ) ;
#32 =( LENGTH_UNIT ( ) NAMED_UNIT ( * ) SI_UNIT ( .MILLI., .METRE. ) );
#33 = APPLICATION_CONTEXT ( 'automotive_design' ) ;
#34 = DIRECTION ( 'NONE',  ( -0.0000000000000000000, -0.0000000000000000000, -1.000000000000000000 ) ) ;
#35 = ADVANCED_FACE ( 'NONE', ( #36 ), #18, .F. ) ;
#36 = FACE_OUTER_BOUND ( 'NONE', #72, .T. ) ;
#37 = ORIENTED_EDGE ( 'NONE', *, *, #21, .T. ) ;
#38 =( GEOMETRIC_REPRESENTATION_CONTEXT ( 3 ) GLOBAL_UNCERTAINTY_ASSIGNED_CONTEXT ( ( #129 ) ) GLOBAL_UNIT_ASSIGNED_CONTEXT ( ( #44, #47, #90 ) ) REPRESENTATION_CONTEXT ( 'NONE', 'WORKASPACE' ) );
#39 = AXIS2_PLACEMENT_3D ( 'NONE', #78, #132, #1 ) ;
#40 = CARTESIAN_POINT ( 'NONE',  ( 50.00000000000000000, 6.123233995736766085E-15, 0.0000000000000000000 ) ) ;
#41 = ORIENTED_EDGE ( 'NONE', *, *, #122, .T. ) ;
#42 = CARTESIAN_POINT ( 'NONE',  ( -50.00000000000000000, 0.0000000000000000000, 4.253961525412961464 ) ) ;
#43 = SURFACE_SIDE_STYLE ('',( #3 ) ) ;
#44 =( LENGTH_UNIT ( ) NAMED_UNIT ( * ) SI_UNIT ( .MILLI., .METRE. ) );
#45 = ORIENTED_EDGE ( 'NONE', *, *, #81, .F. ) ;
#46 = PRESENTATION_LAYER_ASSIGNMENT (  '', '', ( #97 ) ) ;
#47 =( NAMED_UNIT ( * ) PLANE_ANGLE_UNIT ( ) SI_UNIT ( $, .RADIAN. ) );
#48 = FILL_AREA_STYLE ('',( #62 ) ) ;
#49 = ORIENTED_EDGE ( 'NONE', *, *, #60, .F. ) ;
#50 = CYLINDRICAL_SURFACE ( 'NONE', #14, 50.00000000000000000 ) ;
#51 = PRODUCT_DEFINITION ( 'Î´Öª', '', #103, #104 ) ;
#52 = PRODUCT ( 'GCC-411313', 'GCC-411313', '', ( #92 ) ) ;
#53 = COLOUR_RGB ( '',0.9411764705882352811, 0.9607843137254902244, 0.9686274509803921573 ) ;
#54 = CARTESIAN_POINT ( 'NONE',  ( 50.00000000000000000, 6.123233995736766085E-15, 4.253961525412961464 ) ) ;
#55 = ADVANCED_BREP_SHAPE_REPRESENTATION ( 'GCC-411313', ( #2, #39 ), #38 ) ;
#56 = ADVANCED_FACE ( 'NONE', ( #107 ), #84, .T. ) ;
#57 = CARTESIAN_POINT ( 'NONE',  ( -50.00000000000002132, 100.0000000000000000, 7.746038474587039424 ) ) ;
#58 = SURFACE_STYLE_USAGE ( .BOTH. , #43 ) ;
#59 = DIRECTION ( 'NONE',  ( 0.0000000000000000000, 0.03489949670249403724, -0.9993908270190959842 ) ) ;
#60 = EDGE_CURVE ( 'NONE', #16, #30, #91, .T. ) ;
#61 =( BOUNDED_CURVE ( )  B_SPLINE_CURVE ( 3, ( #112, #140, #71, #99 ),
 .UNSPECIFIED., .F., .T. ) 
 B_SPLINE_CURVE_WITH_KNOTS ( ( 4, 4 ),
 ( 4.712388980384689674, 7.853981633974482790 ),
 .UNSPECIFIED. ) 
 CURVE ( )  GEOMETRIC_REPRESENTATION_ITEM ( )  RATIONAL_B_SPLINE_CURVE ( ( 1.000000000000000000, 0.3333333333333333703, 0.3333333333333333703, 1.000000000000000000 ) ) 
 REPRESENTATION_ITEM ( '' )  );
#62 = FILL_AREA_STYLE_COLOUR ( '', #53 ) ;
#63 = STYLED_ITEM ( 'NONE', ( #69 ), #2 ) ;
#64 =( GEOMETRIC_REPRESENTATION_CONTEXT ( 3 ) GLOBAL_UNCERTAINTY_ASSIGNED_CONTEXT ( ( #20 ) ) GLOBAL_UNIT_ASSIGNED_CONTEXT ( ( #10, #86, #23 ) ) REPRESENTATION_CONTEXT ( 'NONE', 'WORKASPACE' ) );
#65 = ORIENTED_EDGE ( 'NONE', *, *, #81, .T. ) ;
#66 = ORIENTED_EDGE ( 'NONE', *, *, #128, .F. ) ;
#67 =( BOUNDED_CURVE ( )  B_SPLINE_CURVE ( 3, ( #42, #57, #127, #54 ),
 .UNSPECIFIED., .F., .T. ) 
 B_SPLINE_CURVE_WITH_KNOTS ( ( 4, 4 ),
 ( 1.570796326794896558, 4.712388980384689674 ),
 .UNSPECIFIED. ) 
 CURVE ( )  GEOMETRIC_REPRESENTATION_ITEM ( )  RATIONAL_B_SPLINE_CURVE ( ( 1.000000000000000000, 0.3333333333333333703, 0.3333333333333333703, 1.000000000000000000 ) ) 
 REPRESENTATION_ITEM ( '' )  );
#68 = SURFACE_STYLE_USAGE ( .BOTH. , #19 ) ;
#69 = PRESENTATION_STYLE_ASSIGNMENT (( #68 ) ) ;
#70 = CARTESIAN_POINT ( 'NONE',  ( 0.0000000000000000000, 0.0000000000000000000, 6.000000000000000000 ) ) ;
#71 = CARTESIAN_POINT ( 'NONE',  ( -50.00000000000000000, -100.0000000000000000, 0.7618845762388835041 ) ) ;
#72 = EDGE_LOOP ( 'NONE', ( #66, #49 ) ) ;
#73 = VERTEX_POINT ( 'NONE', #139 ) ;
#74 = MECHANICAL_DESIGN_GEOMETRIC_PRESENTATION_REPRESENTATION (  '', ( #97 ), #64 ) ;
#75 =( NAMED_UNIT ( * ) PLANE_ANGLE_UNIT ( ) SI_UNIT ( $, .RADIAN. ) );
#76 = EDGE_LOOP ( 'NONE', ( #93, #135 ) ) ;
#77 = PLANE ( 'NONE',  #124 ) ;
#78 = CARTESIAN_POINT ( 'NONE',  ( 0.0000000000000000000, 0.0000000000000000000, 0.0000000000000000000 ) ) ;
#79 = DIRECTION ( 'NONE',  ( 0.0000000000000000000, 0.0000000000000000000, 1.000000000000000000 ) ) ;
#80 = ADVANCED_FACE ( 'NONE', ( #100 ), #77, .F. ) ;
#81 = EDGE_CURVE ( 'NONE', #73, #16, #8, .T. ) ;
#82 = DIRECTION ( 'NONE',  ( 0.0000000000000000000, 0.9993908270190958731, 0.03489949670249403030 ) ) ;
#83 = PRESENTATION_LAYER_ASSIGNMENT (  '', '', ( #63 ) ) ;
#84 = CYLINDRICAL_SURFACE ( 'NONE', #133, 50.00000000000000000 ) ;
#85 = MECHANICAL_DESIGN_GEOMETRIC_PRESENTATION_REPRESENTATION (  '', ( #63 ), #95 ) ;
#86 =( NAMED_UNIT ( * ) PLANE_ANGLE_UNIT ( ) SI_UNIT ( $, .RADIAN. ) );
#87 = CARTESIAN_POINT ( 'NONE',  ( 0.0000000000000000000, 0.0000000000000000000, 6.000000000000000000 ) ) ;
#88 = DIRECTION ( 'NONE',  ( -0.0000000000000000000, -0.0000000000000000000, -1.000000000000000000 ) ) ;
#89 = AXIS2_PLACEMENT_3D ( 'NONE', #13, #118, #130 ) ;
#90 =( NAMED_UNIT ( * ) SI_UNIT ( $, .STERADIAN. ) SOLID_ANGLE_UNIT ( ) );
#91 = CIRCLE ( 'NONE', #27, 50.00000000000000000 ) ;
#92 = PRODUCT_CONTEXT ( 'NONE', #33, 'mechanical' ) ;
#93 = ORIENTED_EDGE ( 'NONE', *, *, #21, .F. ) ;
#94 = SURFACE_STYLE_FILL_AREA ( #115 ) ;
#95 =( GEOMETRIC_REPRESENTATION_CONTEXT ( 3 ) GLOBAL_UNCERTAINTY_ASSIGNED_CONTEXT ( ( #136 ) ) GLOBAL_UNIT_ASSIGNED_CONTEXT ( ( #32, #75, #29 ) ) REPRESENTATION_CONTEXT ( 'NONE', 'WORKASPACE' ) );
#96 = CARTESIAN_POINT ( 'NONE',  ( 0.0000000000000000000, 0.0000000000000000000, 0.0000000000000000000 ) ) ;
#97 = STYLED_ITEM ( 'NONE', ( #116 ), #55 ) ;
#98 = CARTESIAN_POINT ( 'NONE',  ( -50.00000000000000000, 0.0000000000000000000, 6.000000000000000000 ) ) ;
#99 = CARTESIAN_POINT ( 'NONE',  ( -50.00000000000000000, 0.0000000000000000000, 4.253961525412961464 ) ) ;
#100 = FACE_OUTER_BOUND ( 'NONE', #76, .T. ) ;
#101 = ORIENTED_EDGE ( 'NONE', *, *, #9, .T. ) ;
#102 = VECTOR ( 'NONE', #88, 1000.000000000000000 ) ;
#103 = PRODUCT_DEFINITION_FORMATION_WITH_SPECIFIED_SOURCE ( 'ÈÎºÎ', '', #52, .NOT_KNOWN. ) ;
#104 = PRODUCT_DEFINITION_CONTEXT ( 'detailed design', #121, 'design' ) ;
#105 = DIRECTION ( 'NONE',  ( 1.000000000000000000, 0.0000000000000000000, -0.0000000000000000000 ) ) ;
#106 = ORIENTED_EDGE ( 'NONE', *, *, #9, .F. ) ;
#107 = FACE_OUTER_BOUND ( 'NONE', #5, .T. ) ;
#108 = ADVANCED_FACE ( 'NONE', ( #126 ), #50, .T. ) ;
#109 = APPLICATION_PROTOCOL_DEFINITION ( 'draft international standard', 'automotive_design', 1998, #33 ) ;
#110 = LINE ( 'NONE', #98, #24 ) ;
#111 = PRODUCT_DEFINITION_SHAPE ( 'NONE', 'NONE',  #51 ) ;
#112 = CARTESIAN_POINT ( 'NONE',  ( 50.00000000000000000, 6.123233995736766085E-15, 4.253961525412961464 ) ) ;
#113 = APPLICATION_PROTOCOL_DEFINITION ( 'draft international standard', 'automotive_design', 1998, #121 ) ;
#114 = FILL_AREA_STYLE_COLOUR ( '', #120 ) ;
#115 = FILL_AREA_STYLE ('',( #114 ) ) ;
#116 = PRESENTATION_STYLE_ASSIGNMENT (( #58 ) ) ;
#117 = DIRECTION ( 'NONE',  ( -1.000000000000000000, 0.0000000000000000000, 0.0000000000000000000 ) ) ;
#118 = DIRECTION ( 'NONE',  ( 0.0000000000000000000, 0.0000000000000000000, 1.000000000000000000 ) ) ;
#119 = ORIENTED_EDGE ( 'NONE', *, *, #60, .T. ) ;
#120 = COLOUR_RGB ( '',0.9411764705882352811, 0.9607843137254902244, 0.9686274509803921573 ) ;
#121 = APPLICATION_CONTEXT ( 'automotive_design' ) ;
#122 = EDGE_CURVE ( 'NONE', #73, #123, #61, .T. ) ;
#123 = VERTEX_POINT ( 'NONE', #25 ) ;
#124 = AXIS2_PLACEMENT_3D ( 'NONE', #11, #59, #82 ) ;
#125 = CARTESIAN_POINT ( 'NONE',  ( -50.00000000000000000, 0.0000000000000000000, 0.0000000000000000000 ) ) ;
#126 = FACE_OUTER_BOUND ( 'NONE', #15, .T. ) ;
#127 = CARTESIAN_POINT ( 'NONE',  ( 49.99999999999997868, 100.0000000000000000, 7.746038474587039424 ) ) ;
#128 = EDGE_CURVE ( 'NONE', #30, #16, #31, .T. ) ;
#129 = UNCERTAINTY_MEASURE_WITH_UNIT (LENGTH_MEASURE( 1.000000000000000082E-05 ), #44, 'distance_accuracy_value', 'NONE');
#130 = DIRECTION ( 'NONE',  ( 1.000000000000000000, 0.0000000000000000000, 0.0000000000000000000 ) ) ;
#131 = DIRECTION ( 'NONE',  ( 1.000000000000000000, 0.0000000000000000000, 0.0000000000000000000 ) ) ;
#132 = DIRECTION ( 'NONE',  ( 0.0000000000000000000, 0.0000000000000000000, 1.000000000000000000 ) ) ;
#133 = AXIS2_PLACEMENT_3D ( 'NONE', #70, #34, #117 ) ;
#134 = AXIS2_PLACEMENT_3D ( 'NONE', #96, #28, #105 ) ;
#135 = ORIENTED_EDGE ( 'NONE', *, *, #122, .F. ) ;
#136 = UNCERTAINTY_MEASURE_WITH_UNIT (LENGTH_MEASURE( 1.000000000000000082E-05 ), #32, 'distance_accuracy_value', 'NONE');
#137 = DIRECTION ( 'NONE',  ( -0.0000000000000000000, -0.0000000000000000000, -1.000000000000000000 ) ) ;
#138 = CARTESIAN_POINT ( 'NONE',  ( 50.00000000000000000, 6.123233995736766085E-15, 6.000000000000000000 ) ) ;
#139 = CARTESIAN_POINT ( 'NONE',  ( 50.00000000000000000, 6.123233995736766085E-15, 4.253961525412961464 ) ) ;
#140 = CARTESIAN_POINT ( 'NONE',  ( 50.00000000000002132, -100.0000000000000000, 0.7618845762388835041 ) ) ;
ENDSEC;
END-ISO-10303-21;
